The Who - Fiddle About Bass tab download free or play online

Bass tab for Fiddle About by The Who free download and read or play online: file .txt, 1.85 kb has 57 views and 0 downloads.

Download bass tab "Fiddle About" (The Who)

The Who Band name
Fiddle About Song name
Bass tabs Tab type
1.85 kb File size
.TXT File type
57 views
0 downloads
 
Are you robot?

Fiddle About bass tab read and play online

                    Fiddle About Bass Tab by Who, 


G------------------|
D-5-3-1--3-5-3-1---|
A------------------|
E------------------|

G-----------------------------------|
D-3-3-3-3-3-3-3-5--3-3-3-3-3-5--3-5-|
A-----------------------------------|
E-----------------------------------|

G--------------------|
D-5---5--5-----------|
A---5------3--6------|
E--------------------|

G-----------------------------------|
D-3-3-3-3-3-3-3-5--3-3-3-3-3-5--3-5-|
A-----------------------------------|
E-----------------------------------|

G--------------------|
D-5---5--5-----------|
A---5------3--6------|
E--------------------|

G-----------------------------------|
D-3-3-3-3-3-3-3-5--3-3-3-3-3-5--3-5-|
A-----------------------------------|
E-----------------------------------|

G----------------------------------|
D-5-4-4-3--------------------------|
A---------0h3-4-5------------------|
E----------------------------------|

G-----------------------------------|
D-3-3-3-3-3-3-3-5--3-3-3-3-3-5--3-5-|
A-----------------------------------|
E-----------------------------------|

G------------------|
D-5-3-1--3-5-3-1---|
A------------------|
E------------------|

G-----------------------------------|
D-3-3-3-3-3-3-3-5--3-3-3-3-3-5--3-5-|
A-----------------------------------|
E-----------------------------------|

G------------------|
D-5-3-1--3-5-3-1---|
A------------------|
E------------------|

G-----------------------------------|
D-3-3-3-3-3-3-3-5--3-3-3-3-3-5--3-5-|
A-----------------------------------|
E-----------------------------------|

G-------------------------------------|
D-3-3-3-3-3-3-3-5--3-3-3-3-3-5--3-5---|
A-------------------------------------|
E-----------------------------------3-| x3

G-------------------|
D-3-3-3-3-3-3-3-5---|
A-------------------|
E-------------------|x12

G-------|
D-3-----|
A-------|
E-------|

This sounds 100% right to me,awesome song and band,enjoy.                    

Comments for bass tab — Fiddle About (The Who)

Other Fiddle About by The Who tabs:

Last viewed The Who tabs: